ISO-10303-21;
HEADER;
FILE_DESCRIPTION (( 'STEP AP203' ),
    '1' );
FILE_NAME ('BK7-LNPBSC-25.4-1064.STEP',
    '2021-01-05T02:01:55',
    ( '' ),
    ( '' ),
    'SwSTEP 2.0',
    'SolidWorks 2020',
    '' );
FILE_SCHEMA (( 'CONFIG_CONTROL_DESIGN' ));
ENDSEC;

DATA;
#1 = CARTESIAN_POINT ( 'NONE',  ( 0.000000000000000000, 0.000000000000000000, 12.69999999999999929 ) ) ;
#2 = ORIENTED_EDGE ( 'NONE', *, *, #16, .T. ) ;
#3 = ORIENTED_EDGE ( 'NONE', *, *, #271, .F. ) ;
#4 = DIRECTION ( 'NONE',  ( 1.000000000000000000, -2.220446049250312588E-16, 0.000000000000000000 ) ) ;
#5 = CARTESIAN_POINT ( 'NONE',  ( 12.69999999999999574, 12.69999999999999574, 12.69999999999999929 ) ) ;
#6 = EDGE_CURVE ( 'NONE', #154, #103, #82, .T. ) ;
#7 = PERSON_AND_ORGANIZATION ( #284, #244 ) ;
#8 = VECTOR ( 'NONE', #166, 1000.000000000000000 ) ;
#9 = AXIS2_PLACEMENT_3D ( 'NONE', #91, #63, #117 ) ;
#10 = APPROVAL_STATUS ( 'not_yet_approved' ) ;
#11 = DIRECTION ( 'NONE',  ( 1.000000000000000000, 0.000000000000000000, 0.000000000000000000 ) ) ;
#12 = LINE ( 'NONE', #37, #200 ) ;
#13 = CC_DESIGN_PERSON_AND_ORGANIZATION_ASSIGNMENT ( #255, #46, ( #191 ) ) ;
#14 = AXIS2_PLACEMENT_3D ( 'NONE', #98, #268, #70 ) ;
#15 = CARTESIAN_POINT ( 'NONE',  ( -12.70000000000000284, 12.70000000000000284, 12.69999999999999929 ) ) ;
#16 = EDGE_CURVE ( 'NONE', #103, #100, #34, .T. ) ;
#17 = CARTESIAN_POINT ( 'NONE',  ( 12.69999999999999929, 12.69999999999999929, -12.69999999999999929 ) ) ;
#18 = ORIENTED_EDGE ( 'NONE', *, *, #220, .T. ) ;
#19 = LINE ( 'NONE', #182, #240 ) ;
#20 = VECTOR ( 'NONE', #277, 1000.000000000000000 ) ;
#21 = ORIENTED_EDGE ( 'NONE', *, *, #245, .F. ) ;
#22 = DIRECTION ( 'NONE',  ( -2.220446049250312588E-16, 1.000000000000000000, 0.000000000000000000 ) ) ;
#23 = ORIENTED_EDGE ( 'NONE', *, *, #199, .F. ) ;
#24 = PLANE ( 'NONE',  #280 ) ;
#25 = DATE_TIME_ROLE ( 'creation_date' ) ;
#26 = VERTEX_POINT ( 'NONE', #38 ) ;
#27 =( NAMED_UNIT ( * ) SI_UNIT ( $, .STERADIAN. ) SOLID_ANGLE_UNIT ( ) );
#28 = LINE ( 'NONE', #51, #293 ) ;
#29 = CARTESIAN_POINT ( 'NONE',  ( -12.69999999999999751, -12.69999999999999929, -12.69999999999999929 ) ) ;
#30 = CALENDAR_DATE ( 2021, 5, 1 ) ;
#31 = APPROVAL ( #78, 'UNSPECIFIED' ) ;
#32 = LINE ( 'NONE', #161, #67 ) ;
#33 = SECURITY_CLASSIFICATION ( '', '', #138 ) ;
#34 = LINE ( 'NONE', #287, #165 ) ;
#35 = APPROVAL_DATE_TIME ( #84, #156 ) ;
#36 = LOCAL_TIME ( 10, 1, 55.00000000000000000, #232 ) ;
#37 = CARTESIAN_POINT ( 'NONE',  ( -12.69999999999999751, -12.69999999999999929, 12.69999999999999929 ) ) ;
#38 = CARTESIAN_POINT ( 'NONE',  ( 12.69999999999999929, -12.69999999999999929, 12.69999999999999929 ) ) ;
#39 = DIRECTION ( 'NONE',  ( -0.7071067811865475727, -0.7071067811865475727, 0.000000000000000000 ) ) ;
#40 = VERTEX_POINT ( 'NONE', #29 ) ;
#41 = PLANE ( 'NONE',  #128 ) ;
#42 = CARTESIAN_POINT ( 'NONE',  ( -12.70000000000000284, 12.70000000000000284, -12.69999999999999929 ) ) ;
#43 = ADVANCED_FACE ( 'NONE', ( #144 ), #136, .F. ) ;
#44 = CARTESIAN_POINT ( 'NONE',  ( 12.69999999999999574, 12.69999999999999574, 12.69999999999999929 ) ) ;
#45 = DIRECTION ( 'NONE',  ( -0.000000000000000000, 1.000000000000000000, -0.000000000000000000 ) ) ;
#46 = PERSON_AND_ORGANIZATION_ROLE ( 'creator' ) ;
#47 = EDGE_LOOP ( 'NONE', ( #235, #23, #260, #267 ) ) ;
#48 = APPLICATION_PROTOCOL_DEFINITION ( 'international standard', 'config_control_design', 1994, #173 ) ;
#49 = VECTOR ( 'NONE', #57, 1000.000000000000000 ) ;
#50 = ADVANCED_FACE ( 'NONE', ( #142 ), #107, .F. ) ;
#51 = CARTESIAN_POINT ( 'NONE',  ( 12.69999999999999929, 12.69999999999999929, 12.69999999999999929 ) ) ;
#52 = CARTESIAN_POINT ( 'NONE',  ( 12.69999999999999574, 12.69999999999999574, -12.69999999999999929 ) ) ;
#53 = ORIENTED_EDGE ( 'NONE', *, *, #266, .F. ) ;
#54 = CC_DESIGN_PERSON_AND_ORGANIZATION_ASSIGNMENT ( #304, #257, ( #87 ) ) ;
#55 = CARTESIAN_POINT ( 'NONE',  ( 12.69999999999999574, 12.69999999999999574, 12.69999999999999929 ) ) ;
#56 = EDGE_CURVE ( 'NONE', #69, #273, #243, .T. ) ;
#57 = DIRECTION ( 'NONE',  ( 0.000000000000000000, 0.000000000000000000, -1.000000000000000000 ) ) ;
#58 = SHAPE_DEFINITION_REPRESENTATION ( #162, #223 ) ;
#59 = COORDINATED_UNIVERSAL_TIME_OFFSET ( 8, 0, .AHEAD. ) ;
#60 = CALENDAR_DATE ( 2021, 5, 1 ) ;
#61 = LOCAL_TIME ( 10, 1, 55.00000000000000000, #59 ) ;
#62 = PRODUCT_RELATED_PRODUCT_CATEGORY ( 'detail', '', ( #87 ) ) ;
#63 = DIRECTION ( 'NONE',  ( -1.000000000000000000, 0.000000000000000000, 0.000000000000000000 ) ) ;
#64 = ORIENTED_EDGE ( 'NONE', *, *, #262, .F. ) ;
#65 = DIRECTION ( 'NONE',  ( -0.7071067811865474617, -0.7071067811865474617, 0.000000000000000000 ) ) ;
#66 = ORIENTED_EDGE ( 'NONE', *, *, #56, .T. ) ;
#67 = VECTOR ( 'NONE', #4, 1000.000000000000000 ) ;
#68 = CARTESIAN_POINT ( 'NONE',  ( 12.69999999999999574, 12.69999999999999574, 12.69999999999999929 ) ) ;
#69 = VERTEX_POINT ( 'NONE', #265 ) ;
#70 = DIRECTION ( 'NONE',  ( 0.000000000000000000, -0.000000000000000000, 1.000000000000000000 ) ) ;
#71 = VERTEX_POINT ( 'NONE', #308 ) ;
#72 = DIRECTION ( 'NONE',  ( -0.7071067811865475727, 0.7071067811865475727, 0.000000000000000000 ) ) ;
#73 = VERTEX_POINT ( 'NONE', #88 ) ;
#74 = PLANE ( 'NONE',  #201 ) ;
#75 = AXIS2_PLACEMENT_3D ( 'NONE', #44, #153, #172 ) ;
#76 = ORIENTED_EDGE ( 'NONE', *, *, #167, .F. ) ;
#77 = VERTEX_POINT ( 'NONE', #216 ) ;
#78 = APPROVAL_STATUS ( 'not_yet_approved' ) ;
#79 = CC_DESIGN_APPROVAL ( #31, ( #191 ) ) ;
#80 = ORIENTED_EDGE ( 'NONE', *, *, #143, .F. ) ;
#81 = FACE_OUTER_BOUND ( 'NONE', #125, .T. ) ;
#82 = LINE ( 'NONE', #5, #139 ) ;
#83 = CALENDAR_DATE ( 2021, 5, 1 ) ;
#84 = DATE_AND_TIME ( #312, #36 ) ;
#85 = ORIENTED_EDGE ( 'NONE', *, *, #301, .F. ) ;
#86 = PERSON_AND_ORGANIZATION ( #284, #244 ) ;
#87 = PRODUCT ( 'BK7-LNPBSC-25.4-1064', 'BK7-LNPBSC-25.4-1064', '', ( #211 ) ) ;
#88 = CARTESIAN_POINT ( 'NONE',  ( -12.69999999999999751, -12.69999999999999929, 12.69999999999999929 ) ) ;
#89 = EDGE_CURVE ( 'NONE', #154, #131, #193, .T. ) ;
#90 = VECTOR ( 'NONE', #97, 1000.000000000000000 ) ;
#91 = CARTESIAN_POINT ( 'NONE',  ( 12.69999999999999929, 12.69999999999999929, 12.69999999999999929 ) ) ;
#92 = EDGE_CURVE ( 'NONE', #73, #26, #12, .T. ) ;
#93 = CARTESIAN_POINT ( 'NONE',  ( -12.70000000000000284, 12.70000000000000284, 12.69999999999999929 ) ) ;
#94 = CC_DESIGN_PERSON_AND_ORGANIZATION_ASSIGNMENT ( #286, #169, ( #152 ) ) ;
#95 = DIRECTION ( 'NONE',  ( 0.7071067811865475727, 0.7071067811865475727, 0.000000000000000000 ) ) ;
#96 =( GEOMETRIC_REPRESENTATION_CONTEXT ( 3 ) GLOBAL_UNCERTAINTY_ASSIGNED_CONTEXT ( ( #210 ) ) GLOBAL_UNIT_ASSIGNED_CONTEXT ( ( #132, #306, #27 ) ) REPRESENTATION_CONTEXT ( 'NONE', 'WORKASPACE' ) );
#97 = DIRECTION ( 'NONE',  ( -0.000000000000000000, -0.000000000000000000, -1.000000000000000000 ) ) ;
#98 = CARTESIAN_POINT ( 'NONE',  ( -12.69999999999999751, -12.69999999999999929, 12.69999999999999929 ) ) ;
#99 = CARTESIAN_POINT ( 'NONE',  ( 12.69999999999999929, -12.69999999999999929, 12.69999999999999929 ) ) ;
#100 = VERTEX_POINT ( 'NONE', #93 ) ;
#101 = EDGE_CURVE ( 'NONE', #103, #69, #196, .T. ) ;
#102 = PLANE ( 'NONE',  #106 ) ;
#103 = VERTEX_POINT ( 'NONE', #188 ) ;
#104 = APPROVAL_ROLE ( '' ) ;
#105 = ORIENTED_EDGE ( 'NONE', *, *, #245, .T. ) ;
#106 = AXIS2_PLACEMENT_3D ( 'NONE', #1, #236, #256 ) ;
#107 = PLANE ( 'NONE',  #126 ) ;
#108 = CARTESIAN_POINT ( 'NONE',  ( 0.000000000000000000, 0.000000000000000000, -12.69999999999999929 ) ) ;
#109 = APPROVAL ( #10, 'UNSPECIFIED' ) ;
#110 = APPLICATION_CONTEXT ( 'configuration controlled 3d designs of mechanical parts and assemblies' ) ;
#111 = DATE_AND_TIME ( #60, #61 ) ;
#112 = ORIENTED_EDGE ( 'NONE', *, *, #92, .T. ) ;
#113 = APPROVAL_ROLE ( '' ) ;
#114 = CARTESIAN_POINT ( 'NONE',  ( 12.69999999999999929, 12.69999999999999929, 12.69999999999999929 ) ) ;
#115 = ADVANCED_FACE ( 'NONE', ( #81 ), #242, .F. ) ;
#116 = CLOSED_SHELL ( 'NONE', ( #115, #180, #122, #317, #43 ) ) ;
#117 = DIRECTION ( 'NONE',  ( 0.000000000000000000, 0.000000000000000000, 1.000000000000000000 ) ) ;
#118 = ORIENTED_EDGE ( 'NONE', *, *, #167, .T. ) ;
#119 = FACE_OUTER_BOUND ( 'NONE', #47, .T. ) ;
#120 = CARTESIAN_POINT ( 'NONE',  ( 12.69999999999999574, 12.69999999999999574, -12.69999999999999929 ) ) ;
#121 = EDGE_LOOP ( 'NONE', ( #18, #66, #213 ) ) ;
#122 = ADVANCED_FACE ( 'NONE', ( #313 ), #237, .F. ) ;
#123 = EDGE_LOOP ( 'NONE', ( #80, #76, #21 ) ) ;
#124 = CARTESIAN_POINT ( 'NONE',  ( 12.69999999999999574, 12.69999999999999574, 12.69999999999999929 ) ) ;
#125 = EDGE_LOOP ( 'NONE', ( #269, #64, #186, #303 ) ) ;
#126 = AXIS2_PLACEMENT_3D ( 'NONE', #258, #133, #195 ) ;
#127 = APPROVAL_STATUS ( 'not_yet_approved' ) ;
#128 = AXIS2_PLACEMENT_3D ( 'NONE', #320, #202, #290 ) ;
#129 = ORIENTED_EDGE ( 'NONE', *, *, #220, .F. ) ;
#130 = CARTESIAN_POINT ( 'NONE',  ( 0.000000000000000000, 0.000000000000000000, 0.000000000000000000 ) ) ;
#131 = VERTEX_POINT ( 'NONE', #52 ) ;
#132 =( LENGTH_UNIT ( ) NAMED_UNIT ( * ) SI_UNIT ( .MILLI., .METRE. ) );
#133 = DIRECTION ( 'NONE',  ( 0.000000000000000000, 0.000000000000000000, 1.000000000000000000 ) ) ;
#134 = APPROVAL_DATE_TIME ( #250, #31 ) ;
#135 = LINE ( 'NONE', #187, #299 ) ;
#136 = PLANE ( 'NONE',  #205 ) ;
#137 = EDGE_CURVE ( 'NONE', #273, #131, #32, .T. ) ;
#138 = SECURITY_CLASSIFICATION_LEVEL ( 'unclassified' ) ;
#139 = VECTOR ( 'NONE', #241, 999.9999999999998863 ) ;
#140 = VECTOR ( 'NONE', #225, 1000.000000000000000 ) ;
#141 = CC_DESIGN_PERSON_AND_ORGANIZATION_ASSIGNMENT ( #86, #218, ( #33 ) ) ;
#142 = FACE_OUTER_BOUND ( 'NONE', #121, .T. ) ;
#143 = EDGE_CURVE ( 'NONE', #71, #40, #135, .T. ) ;
#144 = FACE_OUTER_BOUND ( 'NONE', #123, .T. ) ;
#145 = VECTOR ( 'NONE', #272, 1000.000000000000000 ) ;
#146 = LINE ( 'NONE', #17, #254 ) ;
#147 = ORIENTED_EDGE ( 'NONE', *, *, #301, .T. ) ;
#148 = DIRECTION ( 'NONE',  ( -0.000000000000000000, -0.000000000000000000, -1.000000000000000000 ) ) ;
#149 = ORIENTED_EDGE ( 'NONE', *, *, #175, .F. ) ;
#150 = FACE_OUTER_BOUND ( 'NONE', #319, .T. ) ;
#151 = CC_DESIGN_DATE_AND_TIME_ASSIGNMENT ( #238, #25, ( #191 ) ) ;
#152 = PRODUCT_DEFINITION_FORMATION_WITH_SPECIFIED_SOURCE ( 'ANY', '', #87, .NOT_KNOWN. ) ;
#153 = DIRECTION ( 'NONE',  ( 2.220446049250312588E-16, -1.000000000000000000, 0.000000000000000000 ) ) ;
#154 = VERTEX_POINT ( 'NONE', #55 ) ;
#155 = COORDINATED_UNIVERSAL_TIME_OFFSET ( 8, 0, .AHEAD. ) ;
#156 = APPROVAL ( #127, 'UNSPECIFIED' ) ;
#157 = EDGE_LOOP ( 'NONE', ( #105, #149, #300, #174 ) ) ;
#158 = DESIGN_CONTEXT ( 'detailed design', #110, 'design' ) ;
#159 = DIRECTION ( 'NONE',  ( -0.000000000000000000, 1.000000000000000000, -0.000000000000000000 ) ) ;
#160 = CARTESIAN_POINT ( 'NONE',  ( 12.69999999999999929, 12.69999999999999929, 12.69999999999999929 ) ) ;
#161 = CARTESIAN_POINT ( 'NONE',  ( 12.69999999999999574, 12.69999999999999574, -12.69999999999999929 ) ) ;
#162 = PRODUCT_DEFINITION_SHAPE ( 'NONE', 'NONE',  #191 ) ;
#163 = ADVANCED_FACE ( 'NONE', ( #164 ), #41, .F. ) ;
#164 = FACE_OUTER_BOUND ( 'NONE', #183, .T. ) ;
#165 = VECTOR ( 'NONE', #219, 1000.000000000000000 ) ;
#166 = DIRECTION ( 'NONE',  ( 0.000000000000000000, 0.000000000000000000, -1.000000000000000000 ) ) ;
#167 = EDGE_CURVE ( 'NONE', #77, #71, #146, .T. ) ;
#168 = APPROVAL_DATE_TIME ( #261, #109 ) ;
#169 = PERSON_AND_ORGANIZATION_ROLE ( 'creator' ) ;
#170 = DIRECTION ( 'NONE',  ( -0.000000000000000000, 0.000000000000000000, 1.000000000000000000 ) ) ;
#171 = DIRECTION ( 'NONE',  ( 0.7071067811865474617, 0.7071067811865474617, 0.000000000000000000 ) ) ;
#172 = DIRECTION ( 'NONE',  ( 0.000000000000000000, 0.000000000000000000, 1.000000000000000000 ) ) ;
#173 = APPLICATION_CONTEXT ( 'configuration controlled 3d designs of mechanical parts and assemblies' ) ;
#174 = ORIENTED_EDGE ( 'NONE', *, *, #262, .T. ) ;
#175 = EDGE_CURVE ( 'NONE', #26, #77, #321, .T. ) ;
#176 = PLANE ( 'NONE',  #75 ) ;
#177 = ORIENTED_EDGE ( 'NONE', *, *, #16, .F. ) ;
#178 = DIRECTION ( 'NONE',  ( 1.000000000000000000, 0.000000000000000000, 0.000000000000000000 ) ) ;
#179 = ORIENTED_EDGE ( 'NONE', *, *, #89, .F. ) ;
#180 = ADVANCED_FACE ( 'NONE', ( #316 ), #296, .F. ) ;
#181 = CC_DESIGN_APPROVAL ( #109, ( #33 ) ) ;
#182 = CARTESIAN_POINT ( 'NONE',  ( -12.69999999999999751, -12.69999999999999929, -12.69999999999999929 ) ) ;
#183 = EDGE_LOOP ( 'NONE', ( #226, #294, #2, #233 ) ) ;
#184 = CALENDAR_DATE ( 2021, 5, 1 ) ;
#185 = LOCAL_TIME ( 10, 1, 55.00000000000000000, #155 ) ;
#186 = ORIENTED_EDGE ( 'NONE', *, *, #247, .F. ) ;
#187 = CARTESIAN_POINT ( 'NONE',  ( 12.69999999999999929, 12.69999999999999929, -12.69999999999999929 ) ) ;
#188 = CARTESIAN_POINT ( 'NONE',  ( -12.69999999999999574, -12.69999999999999396, 12.69999999999999929 ) ) ;
#189 = PERSON_AND_ORGANIZATION_ROLE ( 'design_supplier' ) ;
#190 = COORDINATED_UNIVERSAL_TIME_OFFSET ( 8, 0, .AHEAD. ) ;
#191 = PRODUCT_DEFINITION ( 'UNKNOWN', '', #152, #158 ) ;
#192 = ORIENTED_EDGE ( 'NONE', *, *, #175, .T. ) ;
#193 = LINE ( 'NONE', #264, #8 ) ;
#194 = VECTOR ( 'NONE', #65, 1000.000000000000114 ) ;
#195 = DIRECTION ( 'NONE',  ( -2.220446049250312588E-16, 1.000000000000000000, 0.000000000000000000 ) ) ;
#196 = LINE ( 'NONE', #307, #49 ) ;
#197 = EDGE_LOOP ( 'NONE', ( #129, #179, #206, #209 ) ) ;
#198 = LINE ( 'NONE', #68, #145 ) ;
#199 = EDGE_CURVE ( 'NONE', #100, #273, #204, .T. ) ;
#200 = VECTOR ( 'NONE', #314, 1000.000000000000000 ) ;
#201 = AXIS2_PLACEMENT_3D ( 'NONE', #248, #249, #22 ) ;
#202 = DIRECTION ( 'NONE',  ( 1.000000000000000000, -2.220446049250312588E-16, 0.000000000000000000 ) ) ;
#203 = ADVANCED_FACE ( 'NONE', ( #295 ), #24, .F. ) ;
#204 = LINE ( 'NONE', #15, #20 ) ;
#205 = AXIS2_PLACEMENT_3D ( 'NONE', #108, #170, #11 ) ;
#206 = ORIENTED_EDGE ( 'NONE', *, *, #6, .T. ) ;
#207 = CC_DESIGN_SECURITY_CLASSIFICATION ( #33, ( #152 ) ) ;
#208 = CC_DESIGN_APPROVAL ( #156, ( #152 ) ) ;
#209 = ORIENTED_EDGE ( 'NONE', *, *, #101, .T. ) ;
#210 = UNCERTAINTY_MEASURE_WITH_UNIT (LENGTH_MEASURE( 1.000000000000000082E-05 ), #132, 'distance_accuracy_value', 'NONE');
#211 = MECHANICAL_CONTEXT ( 'NONE', #173, 'mechanical' ) ;
#212 = MANIFOLD_SOLID_BREP ( '¾µÏ', #252 ) ;
#213 = ORIENTED_EDGE ( 'NONE', *, *, #137, .T. ) ;
#214 = AXIS2_PLACEMENT_3D ( 'NONE', #130, #279, #281 ) ;
#215 = CC_DESIGN_DATE_AND_TIME_ASSIGNMENT ( #111, #310, ( #33 ) ) ;
#216 = CARTESIAN_POINT ( 'NONE',  ( 12.69999999999999929, -12.69999999999999929, -12.69999999999999929 ) ) ;
#217 = PERSON_AND_ORGANIZATION ( #284, #244 ) ;
#218 = PERSON_AND_ORGANIZATION_ROLE ( 'classification_officer' ) ;
#219 = DIRECTION ( 'NONE',  ( -2.220446049250312588E-16, 1.000000000000000000, 0.000000000000000000 ) ) ;
#220 = EDGE_CURVE ( 'NONE', #131, #69, #230, .T. ) ;
#221 = DIRECTION ( 'NONE',  ( 0.7071067811865475727, -0.7071067811865475727, 0.000000000000000000 ) ) ;
#222 = VECTOR ( 'NONE', #39, 999.9999999999998863 ) ;
#223 = ADVANCED_BREP_SHAPE_REPRESENTATION ( 'BK7-LNPBSC-25.4-1064', ( #311, #212, #214 ), #96 ) ;
#224 = DIRECTION ( 'NONE',  ( -2.220446049250312588E-16, 1.000000000000000000, 0.000000000000000000 ) ) ;
#225 = DIRECTION ( 'NONE',  ( -0.000000000000000000, -0.000000000000000000, -1.000000000000000000 ) ) ;
#226 = ORIENTED_EDGE ( 'NONE', *, *, #56, .F. ) ;
#227 = CARTESIAN_POINT ( 'NONE',  ( -12.69999999999999751, -12.69999999999999929, 12.69999999999999929 ) ) ;
#228 = APPROVAL_PERSON_ORGANIZATION ( #309, #109, #113 ) ;
#229 = EDGE_LOOP ( 'NONE', ( #285, #112, #147 ) ) ;
#230 = LINE ( 'NONE', #120, #222 ) ;
#231 = VECTOR ( 'NONE', #148, 1000.000000000000000 ) ;
#232 = COORDINATED_UNIVERSAL_TIME_OFFSET ( 8, 0, .AHEAD. ) ;
#233 = ORIENTED_EDGE ( 'NONE', *, *, #199, .T. ) ;
#234 = APPROVAL_ROLE ( '' ) ;
#235 = ORIENTED_EDGE ( 'NONE', *, *, #137, .F. ) ;
#236 = DIRECTION ( 'NONE',  ( -0.000000000000000000, 0.000000000000000000, 1.000000000000000000 ) ) ;
#237 = PLANE ( 'NONE',  #9 ) ;
#238 = DATE_AND_TIME ( #184, #185 ) ;
#239 = AXIS2_PLACEMENT_3D ( 'NONE', #114, #221, #171 ) ;
#240 = VECTOR ( 'NONE', #178, 1000.000000000000000 ) ;
#241 = DIRECTION ( 'NONE',  ( -0.7071067811865475727, -0.7071067811865475727, 0.000000000000000000 ) ) ;
#242 = PLANE ( 'NONE',  #239 ) ;
#243 = LINE ( 'NONE', #288, #292 ) ;
#244 = ORGANIZATION ( 'UNSPECIFIED', 'UNSPECIFIED', '' ) ;
#245 = EDGE_CURVE ( 'NONE', #40, #77, #19, .T. ) ;
#246 = CARTESIAN_POINT ( 'NONE',  ( 12.69999999999999929, 12.69999999999999929, 12.69999999999999929 ) ) ;
#247 = EDGE_CURVE ( 'NONE', #315, #73, #291, .T. ) ;
#248 = CARTESIAN_POINT ( 'NONE',  ( 0.000000000000000000, 0.000000000000000000, 12.69999999999999929 ) ) ;
#249 = DIRECTION ( 'NONE',  ( 0.000000000000000000, 0.000000000000000000, 1.000000000000000000 ) ) ;
#250 = DATE_AND_TIME ( #30, #318 ) ;
#251 = ADVANCED_FACE ( 'NONE', ( #119 ), #176, .F. ) ;
#252 = CLOSED_SHELL ( 'NONE', ( #203, #163, #251, #274, #50 ) ) ;
#253 = ORIENTED_EDGE ( 'NONE', *, *, #6, .F. ) ;
#254 = VECTOR ( 'NONE', #45, 1000.000000000000000 ) ;
#255 = PERSON_AND_ORGANIZATION ( #284, #244 ) ;
#256 = DIRECTION ( 'NONE',  ( 1.000000000000000000, 0.000000000000000000, 0.000000000000000000 ) ) ;
#257 = PERSON_AND_ORGANIZATION_ROLE ( 'design_owner' ) ;
#258 = CARTESIAN_POINT ( 'NONE',  ( 0.000000000000000000, 0.000000000000000000, -12.69999999999999929 ) ) ;
#259 = APPLICATION_PROTOCOL_DEFINITION ( 'international standard', 'config_control_design', 1994, #110 ) ;
#260 = ORIENTED_EDGE ( 'NONE', *, *, #266, .T. ) ;
#261 = DATE_AND_TIME ( #83, #305 ) ;
#262 = EDGE_CURVE ( 'NONE', #73, #40, #298, .T. ) ;
#263 = APPROVAL_PERSON_ORGANIZATION ( #278, #31, #234 ) ;
#264 = CARTESIAN_POINT ( 'NONE',  ( 12.69999999999999574, 12.69999999999999574, 12.69999999999999929 ) ) ;
#265 = CARTESIAN_POINT ( 'NONE',  ( -12.69999999999999574, -12.69999999999999396, -12.69999999999999929 ) ) ;
#266 = EDGE_CURVE ( 'NONE', #100, #154, #198, .T. ) ;
#267 = ORIENTED_EDGE ( 'NONE', *, *, #89, .T. ) ;
#268 = DIRECTION ( 'NONE',  ( 0.000000000000000000, 1.000000000000000000, 0.000000000000000000 ) ) ;
#269 = ORIENTED_EDGE ( 'NONE', *, *, #143, .T. ) ;
#270 = LINE ( 'NONE', #246, #90 ) ;
#271 = EDGE_CURVE ( 'NONE', #315, #71, #270, .T. ) ;
#272 = DIRECTION ( 'NONE',  ( 1.000000000000000000, -2.220446049250312588E-16, 0.000000000000000000 ) ) ;
#273 = VERTEX_POINT ( 'NONE', #42 ) ;
#274 = ADVANCED_FACE ( 'NONE', ( #150 ), #74, .T. ) ;
#275 = CARTESIAN_POINT ( 'NONE',  ( 12.69999999999999929, 12.69999999999999929, 12.69999999999999929 ) ) ;
#276 = APPROVAL_PERSON_ORGANIZATION ( #217, #156, #104 ) ;
#277 = DIRECTION ( 'NONE',  ( 0.000000000000000000, 0.000000000000000000, -1.000000000000000000 ) ) ;
#278 = PERSON_AND_ORGANIZATION ( #284, #244 ) ;
#279 = DIRECTION ( 'NONE',  ( 0.000000000000000000, 0.000000000000000000, 1.000000000000000000 ) ) ;
#280 = AXIS2_PLACEMENT_3D ( 'NONE', #124, #72, #95 ) ;
#281 = DIRECTION ( 'NONE',  ( 1.000000000000000000, 0.000000000000000000, 0.000000000000000000 ) ) ;
#282 = DIRECTION ( 'NONE',  ( -0.7071067811865474617, -0.7071067811865474617, 0.000000000000000000 ) ) ;
#283 = FACE_OUTER_BOUND ( 'NONE', #229, .T. ) ;
#284 = PERSON ( 'UNSPECIFIED', 'UNSPECIFIED', 'UNSPECIFIED', ('UNSPECIFIED'), ('UNSPECIFIED'), ('UNSPECIFIED') ) ;
#285 = ORIENTED_EDGE ( 'NONE', *, *, #247, .T. ) ;
#286 = PERSON_AND_ORGANIZATION ( #284, #244 ) ;
#287 = CARTESIAN_POINT ( 'NONE',  ( -12.69999999999999574, -12.69999999999999396, 12.69999999999999929 ) ) ;
#288 = CARTESIAN_POINT ( 'NONE',  ( -12.69999999999999574, -12.69999999999999396, -12.69999999999999929 ) ) ;
#289 = EDGE_LOOP ( 'NONE', ( #118, #3, #85, #192 ) ) ;
#290 = DIRECTION ( 'NONE',  ( 0.000000000000000000, 0.000000000000000000, 1.000000000000000000 ) ) ;
#291 = LINE ( 'NONE', #275, #194 ) ;
#292 = VECTOR ( 'NONE', #224, 1000.000000000000000 ) ;
#293 = VECTOR ( 'NONE', #159, 1000.000000000000000 ) ;
#294 = ORIENTED_EDGE ( 'NONE', *, *, #101, .F. ) ;
#295 = FACE_OUTER_BOUND ( 'NONE', #197, .T. ) ;
#296 = PLANE ( 'NONE',  #14 ) ;
#297 = CC_DESIGN_PERSON_AND_ORGANIZATION_ASSIGNMENT ( #7, #189, ( #152 ) ) ;
#298 = LINE ( 'NONE', #227, #140 ) ;
#299 = VECTOR ( 'NONE', #282, 1000.000000000000114 ) ;
#300 = ORIENTED_EDGE ( 'NONE', *, *, #92, .F. ) ;
#301 = EDGE_CURVE ( 'NONE', #26, #315, #28, .T. ) ;
#302 = COORDINATED_UNIVERSAL_TIME_OFFSET ( 8, 0, .AHEAD. ) ;
#303 = ORIENTED_EDGE ( 'NONE', *, *, #271, .T. ) ;
#304 = PERSON_AND_ORGANIZATION ( #284, #244 ) ;
#305 = LOCAL_TIME ( 10, 1, 55.00000000000000000, #190 ) ;
#306 =( NAMED_UNIT ( * ) PLANE_ANGLE_UNIT ( ) SI_UNIT ( $, .RADIAN. ) );
#307 = CARTESIAN_POINT ( 'NONE',  ( -12.69999999999999574, -12.69999999999999396, 12.69999999999999929 ) ) ;
#308 = CARTESIAN_POINT ( 'NONE',  ( 12.69999999999999929, 12.69999999999999929, -12.69999999999999929 ) ) ;
#309 = PERSON_AND_ORGANIZATION ( #284, #244 ) ;
#310 = DATE_TIME_ROLE ( 'classification_date' ) ;
#311 = MANIFOLD_SOLID_BREP ( 'Í¹Ì¨-À', #116 ) ;
#312 = CALENDAR_DATE ( 2021, 5, 1 ) ;
#313 = FACE_OUTER_BOUND ( 'NONE', #289, .T. ) ;
#314 = DIRECTION ( 'NONE',  ( 1.000000000000000000, 0.000000000000000000, 0.000000000000000000 ) ) ;
#315 = VERTEX_POINT ( 'NONE', #160 ) ;
#316 = FACE_OUTER_BOUND ( 'NONE', #157, .T. ) ;
#317 = ADVANCED_FACE ( 'NONE', ( #283 ), #102, .T. ) ;
#318 = LOCAL_TIME ( 10, 1, 55.00000000000000000, #302 ) ;
#319 = EDGE_LOOP ( 'NONE', ( #253, #53, #177 ) ) ;
#320 = CARTESIAN_POINT ( 'NONE',  ( -12.69999999999999574, -12.69999999999999396, 12.69999999999999929 ) ) ;
#321 = LINE ( 'NONE', #99, #231 ) ;
ENDSEC;
END-ISO-10303-21;
